  0
SECTION
  2
HEADER
  9
$ACADVER
  1
AC1015
  9
$ACADMAINTVER
 70
     6
  9
$DWGCODEPAGE
  3
ANSI_1254
  9
$INSBASE
 10
0.0
 20
0.0
 30
0.0
  9
$EXTMIN
 10
0.0
 20
0.0
 30
0.0
  9
$EXTMAX
 10
279.4
 20
215.9
 30
0.0
  9
$LIMMIN
 10
0.0
 20
0.0
  9
$LIMMAX
 10
279.4
 20
215.9
  9
$ORTHOMODE
 70
     0
  9
$REGENMODE
 70
     1
  9
$FILLMODE
 70
     1
  9
$QTEXTMODE
 70
     0
  9
$MIRRTEXT
 70
     1
  9
$LTSCALE
 40
1.0
  9
$ATTMODE
 70
     1
  9
$TEXTSIZE
 40
3.5
  9
$TRACEWID
 40
1.0
  9
$TEXTSTYLE
  7
Standard
  9
$CLAYER
  8
0
  9
$CELTYPE
  6
ByLayer
  9
$CECOLOR
 62
   256
  9
$CELTSCALE
 40
1.0
  9
$DISPSILH
 70
     0
  9
$DIMSCALE
 40
1.0
  9
$DIMASZ
 40
3.5
  9
$DIMEXO
 40
1.0
  9
$DIMDLI
 40
3.75
  9
$DIMRND
 40
0.0
  9
$DIMDLE
 40
0.0
  9
$DIMEXE
 40
1.0
  9
$DIMTP
 40
0.0
  9
$DIMTM
 40
0.0
  9
$DIMTXT
 40
3.5
  9
$DIMCEN
 40
2.5
  9
$DIMTSZ
 40
0.0
  9
$DIMTOL
 70
     0
  9
$DIMLIM
 70
     0
  9
$DIMTIH
 70
     1
  9
$DIMTOH
 70
     1
  9
$DIMSE1
 70
     0
  9
$DIMSE2
 70
     0
  9
$DIMTAD
 70
     1
  9
$DIMZIN
 70
     0
  9
$DIMBLK
  1

  9
$DIMASO
 70
     1
  9
$DIMSHO
 70
     1
  9
$DIMPOST
  1

  9
$DIMAPOST
  1

  9
$DIMALT
 70
     0
  9
$DIMALTD
 70
     3
  9
$DIMALTF
 40
0.0393700787
  9
$DIMLFAC
 40
1.0
  9
$DIMTOFL
 70
     1
  9
$DIMTVP
 40
0.0
  9
$DIMTIX
 70
     0
  9
$DIMSOXD
 70
     0
  9
$DIMSAH
 70
     0
  9
$DIMBLK1
  1

  9
$DIMBLK2
  1

  9
$DIMSTYLE
  2
ISO-25
  9
$DIMCLRD
 70
     0
  9
$DIMCLRE
 70
     0
  9
$DIMCLRT
 70
     0
  9
$DIMTFAC
 40
1.0
  9
$DIMGAP
 40
1.524
  9
$DIMJUST
 70
     0
  9
$DIMSD1
 70
     0
  9
$DIMSD2
 70
     0
  9
$DIMTOLJ
 70
     0
  9
$DIMTZIN
 70
     0
  9
$DIMALTZ
 70
     0
  9
$DIMALTTZ
 70
     0
  9
$DIMUPT
 70
     0
  9
$DIMDEC
 70
     2
  9
$DIMTDEC
 70
     2
  9
$DIMALTU
 70
     2
  9
$DIMALTTD
 70
     3
  9
$DIMTXSTY
  7
Standard
  9
$DIMAUNIT
 70
     0
  9
$DIMADEC
 70
     2
  9
$DIMALTRND
 40
0.0
  9
$DIMAZIN
 70
     0
  9
$DIMDSEP
 70
    44
  9
$DIMATFIT
 70
     3
  9
$DIMFRAC
 70
     0
  9
$DIMLDRBLK
  1

  9
$DIMLUNIT
 70
     2
  9
$DIMLWD
 70
    -2
  9
$DIMLWE
 70
    -2
  9
$DIMTMOVE
 70
     0
  9
$LUNITS
 70
     2
  9
$LUPREC
 70
     2
  9
$SKETCHINC
 40
1.0
  9
$FILLETRAD
 40
10.0
  9
$AUNITS
 70
     0
  9
$AUPREC
 70
     2
  9
$MENU
  1
.
  9
$ELEVATION
 40
0.0
  9
$PELEVATION
 40
0.0
  9
$THICKNESS
 40
0.0
  9
$LIMCHECK
 70
     0
  9
$CHAMFERA
 40
0.0
  9
$CHAMFERB
 40
0.0
  9
$CHAMFERC
 40
0.0
  9
$CHAMFERD
 40
0.0
  9
$SKPOLY
 70
     0
  9
$TDCREATE
 40
2458985.691497222
  9
$TDUCREATE
 40
2458985.566497222
  9
$TDUPDATE
 40
2458985.691497593
  9
$TDUUPDATE
 40
2458985.566497593
  9
$TDINDWG
 40
0.0000000116
  9
$TDUSRTIMER
 40
0.0000000116
  9
$USRTIMER
 70
     1
  9
$ANGBASE
 50
0.0
  9
$ANGDIR
 70
     0
  9
$PDMODE
 70
     0
  9
$PDSIZE
 40
-1.0
  9
$PLINEWID
 40
0.0
  9
$SPLFRAME
 70
     0
  9
$SPLINETYPE
 70
     6
  9
$SPLINESEGS
 70
     8
  9
$HANDSEED
  5
CB
  9
$SURFTAB1
 70
     6
  9
$SURFTAB2
 70
     6
  9
$SURFTYPE
 70
     6
  9
$SURFU
 70
     6
  9
$SURFV
 70
     6
  9
$UCSBASE
  2

  9
$UCSNAME
  2

  9
$UCSORG
 10
0.0
 20
0.0
 30
0.0
  9
$UCSXDIR
 10
1.0
 20
0.0
 30
0.0
  9
$UCSYDIR
 10
0.0
 20
1.0
 30
0.0
  9
$UCSORTHOREF
  2

  9
$UCSORTHOVIEW
 70
     0
  9
$UCSORGTOP
 10
0.0
 20
0.0
 30
0.0
  9
$UCSORGBOTTOM
 10
0.0
 20
0.0
 30
0.0
  9
$UCSORGLEFT
 10
0.0
 20
0.0
 30
0.0
  9
$UCSORGRIGHT
 10
0.0
 20
0.0
 30
0.0
  9
$UCSORGFRONT
 10
0.0
 20
0.0
 30
0.0
  9
$UCSORGBACK
 10
0.0
 20
0.0
 30
0.0
  9
$PUCSBASE
  2

  9
$PUCSNAME
  2

  9
$PUCSORG
 10
0.0
 20
0.0
 30
0.0
  9
$PUCSXDIR
 10
1.0
 20
0.0
 30
0.0
  9
$PUCSYDIR
 10
0.0
 20
1.0
 30
0.0
  9
$PUCSORTHOREF
  2

  9
$PUCSORTHOVIEW
 70
     0
  9
$PUCSORGTOP
 10
0.0
 20
0.0
 30
0.0
  9
$PUCSORGBOTTOM
 10
0.0
 20
0.0
 30
0.0
  9
$PUCSORGLEFT
 10
0.0
 20
0.0
 30
0.0
  9
$PUCSORGRIGHT
 10
0.0
 20
0.0
 30
0.0
  9
$PUCSORGFRONT
 10
0.0
 20
0.0
 30
0.0
  9
$PUCSORGBACK
 10
0.0
 20
0.0
 30
0.0
  9
$USERI1
 70
     0
  9
$USERI2
 70
     0
  9
$USERI3
 70
     0
  9
$USERI4
 70
     0
  9
$USERI5
 70
     0
  9
$USERR1
 40
0.0
  9
$USERR2
 40
0.0
  9
$USERR3
 40
0.0
  9
$USERR4
 40
0.0
  9
$USERR5
 40
0.0
  9
$WORLDVIEW
 70
     1
  9
$SHADEDGE
 70
     3
  9
$SHADEDIF
 70
    70
  9
$TILEMODE
 70
     1
  9
$MAXACTVP
 70
    64
  9
$PINSBASE
 10
0.0
 20
0.0
 30
0.0
  9
$PLIMCHECK
 70
     0
  9
$PEXTMIN
 10
1.0000000000E+20
 20
1.0000000000E+20
 30
1.0000000000E+20
  9
$PEXTMAX
 10
-1.0000000000E+20
 20
-1.0000000000E+20
 30
-1.0000000000E+20
  9
$PLIMMIN
 10
0.0
 20
0.0
  9
$PLIMMAX
 10
420.0
 20
297.0
  9
$UNITMODE
 70
     0
  9
$VISRETAIN
 70
     1
  9
$PLINEGEN
 70
     0
  9
$PSLTSCALE
 70
     1
  9
$TREEDEPTH
 70
  3020
  9
$CMLSTYLE
  2
Standard
  9
$CMLJUST
 70
     0
  9
$CMLSCALE
 40
20.0
  9
$PROXYGRAPHICS
 70
     1
  9
$MEASUREMENT
 70
     1
  9
$CELWEIGHT
370
    -1
  9
$ENDCAPS
280
     0
  9
$JOINSTYLE
280
     0
  9
$LWDISPLAY
290
     1
  9
$INSUNITS
 70
     4
  9
$HYPERLINKBASE
  1

  9
$STYLESHEET
  1

  9
$XEDIT
290
     1
  9
$CEPSNTYPE
380
     0
  9
$PSTYLEMODE
290
     1
  9
$FINGERPRINTGUID
  2
{b476d41d-1970-4d5e-93f8-cebb4648ee91}
  9
$VERSIONGUID
  2
{FAEB1C32-E019-11D5-929B-00C0DF256EC4}
  9
$EXTNAMES
290
     1
  9
$PSVPSCALE
 40
0.0
  9
$OLESTARTUP
290
     0
  0
ENDSEC
  0
SECTION
  2
CLASSES
  0
CLASS
  1
ACDBDICTIONARYWDFLT
  2
AcDbDictionaryWithDefault
  3
ObjectDBX Classes
 90
        0
280
     0
281
     0
  0
CLASS
  1
VISUALSTYLE
  2
AcDbVisualStyle
  3
ObjectDBX Classes
 90
     4095
280
     0
281
     0
  0
CLASS
  1
MATERIAL
  2
AcDbMaterial
  3
ObjectDBX Classes
 90
     1153
280
     0
281
     0
  0
CLASS
  1
SCALE
  2
AcDbScale
  3
ObjectDBX Classes
 90
     1153
280
     0
281
     0
  0
CLASS
  1
TABLESTYLE
  2
AcDbTableStyle
  3
ObjectDBX Classes
 90
     4095
280
     0
281
     0
  0
CLASS
  1
MLEADERSTYLE
  2
AcDbMLeaderStyle
  3
ACDB_MLEADERSTYLE_CLASS
 90
     4095
280
     0
281
     0
  0
CLASS
  1
SUN
  2
AcDbSun
  3
SCENEOE
 90
     1153
280
     0
281
     0
  0
CLASS
  1
ACDBPLACEHOLDER
  2
AcDbPlaceHolder
  3
ObjectDBX Classes
 90
        0
280
     0
281
     0
  0
CLASS
  1
LAYOUT
  2
AcDbLayout
  3
ObjectDBX Classes
 90
        0
280
     0
281
     0
  0
ENDSEC
  0
SECTION
  2
TABLES
  0
TABLE
  2
VPORT
  5
8
330
0
100
AcDbSymbolTable
 70
     1
  0
VPORT
  5
29
330
8
100
AcDbSymbolTableRecord
100
AcDbViewportTableRecord
  2
*Active
 70
     0
 10
0.0
 20
0.0
 11
1.0
 21
1.0
 12
139.7
 22
107.95
 13
0.0
 23
0.0
 14
10.0
 24
10.0
 15
10.0
 25
10.0
 16
0.0
 26
0.0
 36
1.0
 17
0.0
 27
0.0
 37
0.0
 40
215.9
 41
1.2941176471
 42
50.0
 43
0.0
 44
0.0
 50
0.0
 51
0.0
 71
     0
 72
  2000
 73
     1
 74
     3
 75
     0
 76
     0
 77
     0
 78
     0
281
     0
 65
     1
110
0.0
120
0.0
130
0.0
111
1.0
121
0.0
131
0.0
112
0.0
122
1.0
132
0.0
 79
     0
146
0.0
  0
ENDTAB
  0
TABLE
  2
LTYPE
  5
5
330
0
100
AcDbSymbolTable
 70
     6
  0
LTYPE
  5
14
330
5
100
AcDbSymbolTableRecord
100
AcDbLinetypeTableRecord
  2
ByBlock
 70
     0
  3

 72
    65
 73
     0
 40
0.0
  0
LTYPE
  5
15
330
5
100
AcDbSymbolTableRecord
100
AcDbLinetypeTableRecord
  2
ByLayer
 70
     0
  3

 72
    65
 73
     0
 40
0.0
  0
LTYPE
  5
16
330
5
100
AcDbSymbolTableRecord
100
AcDbLinetypeTableRecord
  2
Continuous
 70
     0
  3
Solid line
 72
    65
 73
     0
 40
0.0
  0
LTYPE
  5
6E
330
5
100
AcDbSymbolTableRecord
100
AcDbLinetypeTableRecord
  2
HIDDEN
 70
     0
  3
Hidden __ __ __ __ __ __ __ __ __ __ __ __ __ __
 72
    65
 73
     2
 40
1.905
 49
1.27
 74
     0
 49
-0.635
 74
     0
  0
LTYPE
  5
6F
330
5
100
AcDbSymbolTableRecord
100
AcDbLinetypeTableRecord
  2
PHANTOM
 70
     0
  3
Phantom ______  __  __  ______  __  __  ______
 72
    65
 73
     6
 40
12.7
 49
6.35
 74
     0
 49
-1.27
 74
     0
 49
1.27
 74
     0
 49
-1.27
 74
     0
 49
1.27
 74
     0
 49
-1.27
 74
     0
  0
LTYPE
  5
70
330
5
100
AcDbSymbolTableRecord
100
AcDbLinetypeTableRecord
  2
CENTER
 70
     0
  3
Center ____ _ ____ _ ____ _ ____ _ ____ _ ____
 72
    65
 73
     4
 40
10.16
 49
6.35
 74
     0
 49
-1.27
 74
     0
 49
1.27
 74
     0
 49
-1.27
 74
     0
  0
LTYPE
  5
71
330
5
100
AcDbSymbolTableRecord
100
AcDbLinetypeTableRecord
  2
CENTERX2
 70
     0
  3
Center (2x) ________  __  ________  __  _____
 72
    65
 73
     4
 40
20.32
 49
12.7
 74
     0
 49
-2.54
 74
     0
 49
2.54
 74
     0
 49
-2.54
 74
     0
  0
LTYPE
  5
72
330
5
100
AcDbSymbolTableRecord
100
AcDbLinetypeTableRecord
  2
DOT2
 70
     0
  3
Dot (.5x) ........................................
 72
    65
 73
     2
 40
0.635
 49
0.0
 74
     0
 49
-0.635
 74
     0
  0
ENDTAB
  0
TABLE
  2
LAYER
  5
2
330
0
100
AcDbSymbolTable
 70
    17
  0
LAYER
  5
10
330
2
100
AcDbSymbolTableRecord
100
AcDbLayerTableRecord
  2
0
 70
     0
 62
     7
  6
Continuous
370
    -3
390
F
  0
LAYER
  5
73
330
2
100
AcDbSymbolTableRecord
100
AcDbLayerTableRecord
  2
FORMAT
 70
     0
 62
     7
  6
Continuous
370
    -3
390
F
  0
LAYER
  5
74
330
2
100
AcDbSymbolTableRecord
100
AcDbLayerTableRecord
  2
YARDIMCI_GEOMETRI
 70
     0
 62
    -6
  6
Continuous
290
     0
370
    -3
390
F
  0
LAYER
  5
75
330
2
100
AcDbSymbolTableRecord
100
AcDbLayerTableRecord
  2
SAYFA_CERCEVESI
 70
     0
 62
     7
  6
Continuous
370
    25
390
F
  0
LAYER
  5
76
330
2
100
AcDbSymbolTableRecord
100
AcDbLayerTableRecord
  2
ANTET
 70
     0
 62
     7
  6
Continuous
370
    -3
390
F
  0
LAYER
  5
77
330
2
100
AcDbSymbolTableRecord
100
AcDbLayerTableRecord
  2
OLCU
 70
     0
 62
   150
  6
Continuous
370
    -3
390
F
  0
LAYER
  5
78
330
2
100
AcDbSymbolTableRecord
100
AcDbLayerTableRecord
  2
METIN
 70
     0
 62
    96
  6
Continuous
370
    -3
390
F
  0
LAYER
  5
79
330
2
100
AcDbSymbolTableRecord
100
AcDbLayerTableRecord
  2
BALON
 70
     0
 62
     5
  6
Continuous
370
    -3
390
F
  0
LAYER
  5
7A
330
2
100
AcDbSymbolTableRecord
100
AcDbLayerTableRecord
  2
VURGU
 70
     0
 62
     7
  6
Continuous
370
    -3
390
F
  0
LAYER
  5
7B
330
2
100
AcDbSymbolTableRecord
100
AcDbLayerTableRecord
  2
SILIK
 70
     0
 62
     7
  6
Continuous
370
    -3
390
F
  0
LAYER
  5
7C
330
2
100
AcDbSymbolTableRecord
100
AcDbLayerTableRecord
  2
MODEL
 70
     0
 62
     7
  6
Continuous
370
    -3
390
F
  0
LAYER
  5
7D
330
2
100
AcDbSymbolTableRecord
100
AcDbLayerTableRecord
  2
DETAYLANDıRMA
 70
     0
 62
   190
  6
Continuous
370
    -3
390
F
  0
LAYER
  5
7E
330
2
100
AcDbSymbolTableRecord
100
AcDbLayerTableRecord
  2
TOLERANS
 70
     0
 62
   230
  6
Continuous
370
    -3
390
F
  0
LAYER
  5
7F
330
2
100
AcDbSymbolTableRecord
100
AcDbLayerTableRecord
  2
MERKEZ_CIZGILERI
 70
     0
 62
    30
  6
Continuous
370
    -3
390
F
  0
LAYER
  5
80
330
2
100
AcDbSymbolTableRecord
100
AcDbLayerTableRecord
  2
KESIT-DETAY_CIZGILERI
 70
     0
 62
     7
  6
Continuous
370
    -3
390
F
  0
LAYER
  5
81
330
2
100
AcDbSymbolTableRecord
100
AcDbLayerTableRecord
  2
\U+041E\U+0421\U+0415\U+0412\U+042B\U+0415
 70
     0
 62
     7
  6
Continuous
370
    -3
390
F
  0
LAYER
  5
82
330
2
100
AcDbSymbolTableRecord
100
AcDbLayerTableRecord
  2
\U+0412\U+041E\U+0414\U+042F\U+041D\U+042B\U+0415_\U+0417\U+041D\U+0410\U+041A\U+0418
 70
     0
 62
    11
  6
Continuous
370
    -3
390
F
  0
ENDTAB
  0
TABLE
  2
STYLE
  5
3
330
0
100
AcDbSymbolTable
 70
     1
  0
STYLE
  5
11
330
3
100
AcDbSymbolTableRecord
100
AcDbTextStyleTableRecord
  2
Standard
 70
     0
 40
0.0
 41
1.0
 50
0.0
 71
     0
 42
3.5
  3
txt
  4

  0
ENDTAB
  0
TABLE
  2
VIEW
  5
6
330
0
100
AcDbSymbolTable
 70
     0
  0
ENDTAB
  0
TABLE
  2
UCS
  5
7
330
0
100
AcDbSymbolTable
 70
     0
  0
ENDTAB
  0
TABLE
  2
APPID
  5
9
330
0
100
AcDbSymbolTable
 70
     1
  0
APPID
  5
12
330
9
100
AcDbSymbolTableRecord
100
AcDbRegAppTableRecord
  2
ACAD
 70
     0
  0
ENDTAB
  0
TABLE
  2
DIMSTYLE
  5
A
330
0
100
AcDbSymbolTable
 70
     1
100
AcDbDimStyleTable
  0
DIMSTYLE
105
27
330
A
100
AcDbSymbolTableRecord
100
AcDbDimStyleTableRecord
  2
ISO-25
 70
     0
 41
2.5
 42
0.625
 43
3.75
 44
1.25
 73
     0
 74
     0
 77
     1
 78
     8
140
2.5
141
2.5
143
0.0393700787
147
0.625
171
     3
172
     1
178
     0
271
     2
272
     2
274
     3
278
    44
283
     0
284
     8
340
11
  0
ENDTAB
  0
TABLE
  2
BLOCK_RECORD
  5
1
330
0
100
AcDbSymbolTable
 70
     3
  0
BLOCK_RECORD
  5
1F
330
1
100
AcDbSymbolTableRecord
100
AcDbBlockTableRecord
  2
*Model_Space
340
22
  0
BLOCK_RECORD
  5
1B
330
1
100
AcDbSymbolTableRecord
100
AcDbBlockTableRecord
  2
*Paper_Space
340
1E
  0
BLOCK_RECORD
  5
23
330
1
100
AcDbSymbolTableRecord
100
AcDbBlockTableRecord
  2
*Paper_Space0
340
26
  0
BLOCK_RECORD
  5
88
330
1
100
AcDbSymbolTableRecord
100
AcDbBlockTableRecord
  2
SW_CENTERMARKSYMBOL_0
340
0
102
{BLKREFS
331
93
102
}
  0
BLOCK_RECORD
  5
9C
330
1
100
AcDbSymbolTableRecord
100
AcDbBlockTableRecord
  2
SW_CENTERMARKSYMBOL_1
340
0
102
{BLKREFS
331
A7
102
}
  0
ENDTAB
  0
ENDSEC
  0
SECTION
  2
BLOCKS
  0
BLOCK
  5
20
330
1F
100
AcDbEntity
  8
0
100
AcDbBlockBegin
  2
*Model_Space
 70
     0
 10
0.0
 20
0.0
 30
0.0
  3
*Model_Space
  1

  0
ENDBLK
  5
21
330
1F
100
AcDbEntity
  8
0
100
AcDbBlockEnd
  0
BLOCK
  5
1C
330
1B
100
AcDbEntity
 67
     1
  8
0
100
AcDbBlockBegin
  2
*Paper_Space
 70
     0
 10
0.0
 20
0.0
 30
0.0
  3
*Paper_Space
  1

  0
ENDBLK
  5
1D
330
1B
100
AcDbEntity
 67
     1
  8
0
100
AcDbBlockEnd
  0
BLOCK
  5
24
330
23
100
AcDbEntity
  8
0
100
AcDbBlockBegin
  2
*Paper_Space0
 70
     0
 10
0.0
 20
0.0
 30
0.0
  3
*Paper_Space0
  1

  0
ENDBLK
  5
25
330
23
100
AcDbEntity
  8
0
100
AcDbBlockEnd
  0
BLOCK
  5
89
330
88
100
AcDbEntity
  8
0
100
AcDbBlockBegin
  2
SW_CENTERMARKSYMBOL_0
 70
     0
 10
0.0
 20
0.0
 30
0.0
  3
SW_CENTERMARKSYMBOL_0
  1

  0
LINE
  5
8B
330
88
100
AcDbEntity
  8
FORMAT
 62
     0
100
AcDbLine
 10
0.0
 20
0.0
 30
0.0
 11
2.5
 21
0.0
 31
0.0
  0
LINE
  5
8C
330
88
100
AcDbEntity
  8
FORMAT
 62
     0
100
AcDbLine
 10
0.0
 20
0.0
 30
0.0
 11
0.0
 21
2.5
 31
0.0
  0
LINE
  5
8D
330
88
100
AcDbEntity
  8
FORMAT
 62
     0
100
AcDbLine
 10
0.0
 20
0.0
 30
0.0
 11
-2.5
 21
0.0
 31
0.0
  0
LINE
  5
8E
330
88
100
AcDbEntity
  8
FORMAT
 62
     0
100
AcDbLine
 10
0.0
 20
0.0
 30
0.0
 11
0.0
 21
-2.5
 31
0.0
  0
LINE
  5
8F
330
88
100
AcDbEntity
  8
FORMAT
 62
     0
100
AcDbLine
 10
5.0
 20
0.0
 30
0.0
 11
160.0
 21
0.0
 31
0.0
  0
LINE
  5
90
330
88
100
AcDbEntity
  8
FORMAT
 62
     0
100
AcDbLine
 10
0.0
 20
5.0
 30
0.0
 11
0.0
 21
160.0
 31
0.0
  0
LINE
  5
91
330
88
100
AcDbEntity
  8
FORMAT
 62
     0
100
AcDbLine
 10
-5.0
 20
0.0
 30
0.0
 11
-160.0
 21
0.0
 31
0.0
  0
LINE
  5
92
330
88
100
AcDbEntity
  8
FORMAT
 62
     0
100
AcDbLine
 10
0.0
 20
-5.0
 30
0.0
 11
0.0
 21
-160.0
 31
0.0
  0
ENDBLK
  5
8A
330
88
100
AcDbEntity
  8
0
100
AcDbBlockEnd
  0
BLOCK
  5
9D
330
9C
100
AcDbEntity
  8
0
100
AcDbBlockBegin
  2
SW_CENTERMARKSYMBOL_1
 70
     0
 10
0.0
 20
0.0
 30
0.0
  3
SW_CENTERMARKSYMBOL_1
  1

  0
LINE
  5
9F
330
9C
100
AcDbEntity
  8
FORMAT
 62
     0
100
AcDbLine
 10
0.0
 20
0.0
 30
0.0
 11
0.0
 21
2.5
 31
0.0
  0
LINE
  5
A0
330
9C
100
AcDbEntity
  8
FORMAT
 62
     0
100
AcDbLine
 10
0.0
 20
0.0
 30
0.0
 11
-2.5
 21
0.0
 31
0.0
  0
LINE
  5
A1
330
9C
100
AcDbEntity
  8
FORMAT
 62
     0
100
AcDbLine
 10
0.0
 20
0.0
 30
0.0
 11
0.0
 21
-2.5
 31
0.0
  0
LINE
  5
A2
330
9C
100
AcDbEntity
  8
FORMAT
 62
     0
100
AcDbLine
 10
0.0
 20
0.0
 30
0.0
 11
2.5
 21
0.0
 31
0.0
  0
LINE
  5
A3
330
9C
100
AcDbEntity
  8
FORMAT
 62
     0
100
AcDbLine
 10
0.0
 20
5.0
 30
0.0
 11
0.0
 21
82.5
 31
0.0
  0
LINE
  5
A4
330
9C
100
AcDbEntity
  8
FORMAT
 62
     0
100
AcDbLine
 10
-5.0
 20
0.0
 30
0.0
 11
-82.5
 21
0.0
 31
0.0
  0
LINE
  5
A5
330
9C
100
AcDbEntity
  8
FORMAT
 62
     0
100
AcDbLine
 10
0.0
 20
-5.0
 30
0.0
 11
0.0
 21
-82.5
 31
0.0
  0
LINE
  5
A6
330
9C
100
AcDbEntity
  8
FORMAT
 62
     0
100
AcDbLine
 10
5.0
 20
0.0
 30
0.0
 11
82.5
 21
0.0
 31
0.0
  0
ENDBLK
  5
9E
330
9C
100
AcDbEntity
  8
0
100
AcDbBlockEnd
  0
ENDSEC
  0
SECTION
  2
ENTITIES
  0
LINE
  5
83
330
1F
100
AcDbEntity
  8
0
  6
Continuous
 62
     7
370
    25
100
AcDbLine
 10
60.2388293534
 20
17.4340855766
 30
0.0
 11
60.2388293534
 21
-149.8167413783
 31
0.0
  0
LINE
  5
84
330
1F
100
AcDbEntity
  8
0
  6
Continuous
 62
     7
370
    25
100
AcDbLine
 10
220.2388257771
 20
-149.8167413783
 30
0.0
 11
220.2388257771
 21
17.4441885638
 31
0.0
  0
CIRCLE
  5
85
330
1F
100
AcDbEntity
  8
0
  6
Continuous
 62
     7
370
    25
100
AcDbCircle
 10
140.2388275653
 20
153.1832617212
 30
0.0
 40
138.8
  0
CIRCLE
  5
86
330
1F
100
AcDbEntity
  8
0
  6
Continuous
 62
     7
370
    25
100
AcDbCircle
 10
140.2388275653
 20
153.1832617212
 30
0.0
 40
157.5
  0
LINE
  5
87
330
1F
100
AcDbEntity
  8
0
  6
Continuous
 62
     7
370
    25
100
AcDbLine
 10
220.2388257771
 20
-149.8167413783
 30
0.0
 11
60.2388293534
 21
-149.8167413783
 31
0.0
  0
INSERT
  5
93
330
1F
100
AcDbEntity
  8
FORMAT
 62
     7
100
AcDbBlockReference
  2
SW_CENTERMARKSYMBOL_0
 10
140.2388275653
 20
153.1832617212
 30
0.0
  0
LINE
  5
94
330
1F
100
AcDbEntity
  8
0
  6
Continuous
 62
     7
370
    25
100
AcDbLine
 10
297.7388263732
 20
493.0747732918
 30
0.0
 11
297.7388263732
 21
1205.0747856895
 31
0.0
  0
LINE
  5
95
330
1F
100
AcDbEntity
  8
0
  6
Continuous
 62
     7
370
    25
100
AcDbLine
 10
-17.2611712426
 20
1205.0747856895
 30
0.0
 11
-17.2611712426
 21
493.0747732918
 31
0.0
  0
CIRCLE
  5
96
330
1F
100
AcDbEntity
  8
0
  6
Continuous
 62
     7
370
    25
100
AcDbCircle
 10
140.2388275653
 20
849.0747794906
 30
0.0
 40
70.5
  0
CIRCLE
  5
97
330
1F
100
AcDbEntity
  8
0
  6
Continuous
 62
     7
370
    25
100
AcDbCircle
 10
140.2388275653
 20
849.0747794906
 30
0.0
 40
80.0
  0
LINE
  5
98
330
1F
100
AcDbEntity
  8
0
  6
Continuous
 62
     7
370
    25
100
AcDbLine
 10
140.2388275653
 20
1205.0747856895
 30
0.0
 11
297.7388263732
 21
1205.0747856895
 31
0.0
  0
LINE
  5
99
330
1F
100
AcDbEntity
  8
0
  6
Continuous
 62
     7
370
    25
100
AcDbLine
 10
-17.2611712426
 20
1205.0747856895
 30
0.0
 11
140.2388275653
 21
1205.0747856895
 31
0.0
  0
LINE
  5
9A
330
1F
100
AcDbEntity
  8
0
  6
Continuous
 62
     7
370
    25
100
AcDbLine
 10
140.2388275653
 20
493.0747732918
 30
0.0
 11
297.7388263732
 21
493.0747732918
 31
0.0
  0
LINE
  5
9B
330
1F
100
AcDbEntity
  8
0
  6
Continuous
 62
     7
370
    25
100
AcDbLine
 10
-17.2611712426
 20
493.0747732918
 30
0.0
 11
140.2388275653
 21
493.0747732918
 31
0.0
  0
INSERT
  5
A7
330
1F
100
AcDbEntity
  8
FORMAT
100
AcDbBlockReference
  2
SW_CENTERMARKSYMBOL_1
 10
140.2388275653
 20
849.0747794906
 30
0.0
  0
LINE
  5
A8
330
1F
100
AcDbEntity
  8
0
  6
Continuous
 62
     7
370
    25
100
AcDbLine
 10
-244.2140998095
 20
310.6832605291
 30
0.0
 11
-956.2141122072
 21
310.6832605291
 31
0.0
  0
LINE
  5
A9
330
1F
100
AcDbEntity
  8
0
  6
Continuous
 62
     7
370
    25
100
AcDbLine
 10
-520.2525900453
 20
-4.3167370868
 30
0.0
 11
-244.2140998095
 21
-4.3167370868
 31
0.0
  0
LINE
  5
AA
330
1F
100
AcDbEntity
  8
0
  6
Continuous
 62
     7
370
    25
100
AcDbLine
 10
-956.2141122072
 20
-4.3167370868
 30
0.0
 11
-680.2141042202
 21
-4.3167370868
 31
0.0
  0
LINE
  5
AB
330
1F
100
AcDbEntity
  8
0
  6
Continuous
 62
     7
370
    25
100
AcDbLine
 10
-680.2141042202
 20
-4.3167370868
 30
0.0
 11
-680.2141042202
 21
-149.8167413783
 31
0.0
  0
LINE
  5
AC
330
1F
100
AcDbEntity
  8
0
  6
Continuous
 62
     7
370
    25
100
AcDbLine
 10
-520.2141077965
 20
-149.8167413783
 30
0.0
 11
-520.2141077965
 21
-4.297067554
 31
0.0
  0
SPLINE
  5
AD
330
1F
100
AcDbEntity
  8
0
  6
Continuous
 62
     7
370
    25
100
AcDbSpline
210
0.0
220
0.0
230
1.0
 70
     8
 71
     3
 72
    47
 73
    43
 74
     0
 42
0.000000001
 43
0.00000001
 40
0.0
 40
0.0
 40
0.0
 40
0.0
 40
0.004206097905169
 40
0.030407873374921
 40
0.0537655310670231
 40
0.0771239705815105
 40
0.1011263880316903
 40
0.125130093852566
 40
0.1491847610266076
 40
0.173240652283685
 40
0.1978738502812556
 40
0.2225080112642464
 40
0.2489719292431089
 40
0.2754361407576302
 40
0.3025929251400384
 40
0.3297486051124571
 40
0.3574818108944336
 40
0.3852123046427194
 40
0.4139272008825544
 40
0.4426383874847434
 40
0.4676523079839042
 40
0.4926650799227498
 40
0.518581681760591
 40
0.5444990751719739
 40
0.5670880864729857
 40
0.5896784121533326
 40
0.6128474454888215
 40
0.6360180386898651
 40
0.6601603709872087
 40
0.6843039744798622
 40
0.7089992450587643
 40
0.7336950490234732
 40
0.760847345156478
 40
0.7879990824870882
 40
0.8159214173585585
 40
0.8438419313432219
 40
0.8711607259639474
 40
0.8984773402126236
 40
0.9267727593506139
 40
0.9550661118868741
 40
0.9774606950643303
 40
1.0
 40
1.0
 40
1.0
 40
1.0
 10
-520.2525900452773
 20
-4.297052652818864
 30
0.0
 10
-520.2405679909458
 20
-4.303143592625943
 30
0.0
 10
-520.1536548676507
 20
-4.347177880596312
 30
0.0
 10
-520.5141161191533
 20
-4.164404196736901
 30
0.0
 10
-521.3128964194005
 20
-3.760490997003887
 30
0.0
 10
-522.5677196727081
 20
-3.132781326151787
 30
0.0
 10
-524.2594135585629
 20
-2.297861315843044
 30
0.0
 10
-526.3969322758168
 20
-1.263626092634987
 30
0.0
 10
-528.9465535058732
 20
-0.059377289283416
 30
0.0
 10
-531.9099800685246
 20
1.298216935677374
 30
0.0
 10
-535.2779275714341
 20
2.785568015485032
 30
0.0
 10
-539.1298661962934
 20
4.41180376129234
 30
0.0
 10
-543.4519117003299
 20
6.138510478214829
 30
0.0
 10
-548.2908342531174
 20
7.94244891332209
 30
0.0
 10
-553.5348176718129
 20
9.738643093997926
 30
0.0
 10
-559.2073920351602
 20
11.48893321639326
 30
0.0
 10
-565.2475625243578
 20
13.12282688629758
 30
0.0
 10
-571.7034772003186
 20
14.60140704784892
 30
0.0
 10
-578.5079272232681
 20
15.84476613902448
 30
0.0
 10
-585.3098082790451
 20
16.75301626098298
 30
0.0
 10
-591.9426869701012
 20
17.30988502614182
 30
0.0
 10
-598.4112418910177
 20
17.55468894836641
 30
0.0
 10
-604.9740380067926
 20
17.4824848489344
 30
0.0
 10
-611.2881449917384
 20
17.10873355737107
 30
0.0
 10
-617.2306106176865
 20
16.48772646156417
 30
0.0
 10
-622.830117170665
 20
15.67820762350085
 30
0.0
 10
-628.3283337102894
 20
14.66516509799361
 30
0.0
 10
-633.7690268267085
 20
13.45837255834147
 30
0.0
 10
-639.0710558351901
 20
12.08869935036445
 30
0.0
 10
-644.241910111403
 20
10.57557731718999
 30
0.0
 10
-649.1815068287077
 20
8.970936251988624
 30
0.0
 10
-654.0200390602868
 20
7.255890916079352
 30
0.0
 10
-658.663259509475
 20
5.478736803639597
 30
0.0
 10
-663.0902852897875
 20
3.668143083862443
 30
0.0
 10
-667.1131967085289
 20
1.929238685986392
 30
0.0
 10
-670.6646551393238
 20
0.3214108268763255
 30
0.0
 10
-673.6837591353415
 20
-1.095843231982294
 30
0.0
 10
-676.1874075446268
 20
-2.306215044058355
 30
0.0
 10
-678.1424405151517
 20
-3.272098743085025
 30
0.0
 10
-679.3973423995112
 20
-3.902887675342956
 30
0.0
 10
-680.0940014021738
 20
-4.25565955056699
 30
0.0
 10
-680.1739840789096
 20
-4.296334240074487
 30
0.0
 10
-680.2141042202155
 20
-4.316737086755936
 30
0.0
  0
LINE
  5
AE
330
1F
100
AcDbEntity
  8
0
  6
Continuous
 62
     7
370
    25
100
AcDbLine
 10
-956.2141122072
 20
-4.3167370868
 30
0.0
 11
-956.2141122072
 21
310.6832605291
 31
0.0
  0
LINE
  5
AF
330
1F
100
AcDbEntity
  8
0
  6
Continuous
 62
     7
370
    25
100
AcDbLine
 10
-244.2140998095
 20
-4.3167370868
 30
0.0
 11
-244.2140998095
 21
310.6832605291
 31
0.0
  0
LINE
  5
B0
330
1F
100
AcDbEntity
  8
0
  6
Continuous
 62
     7
370
    25
100
AcDbLine
 10
-520.2141077965
 20
-149.8167413783
 30
0.0
 11
-680.2141042202
 21
-149.8167413783
 31
0.0
  0
LINE
  5
B1
330
1F
100
AcDbEntity
  8
0
  6
Continuous
 62
     7
370
    25
100
AcDbLine
 10
945.3163737106
 20
-4.3167370868
 30
0.0
 11
1221.3163816976
 21
-4.3167370868
 31
0.0
  0
LINE
  5
B2
330
1F
100
AcDbEntity
  8
0
  6
Continuous
 62
     7
370
    25
100
AcDbLine
 10
509.3163692999
 20
-4.3167370868
 30
0.0
 11
785.3531906056
 21
-4.3167370868
 31
0.0
  0
LINE
  5
B3
330
1F
100
AcDbEntity
  8
0
  6
Continuous
 62
     7
370
    25
100
AcDbLine
 10
1221.3163816976
 20
310.6832605291
 30
0.0
 11
509.3163692999
 21
310.6832605291
 31
0.0
  0
LINE
  5
B4
330
1F
100
AcDbEntity
  8
0
  6
Continuous
 62
     7
370
    25
100
AcDbLine
 10
785.3163772869
 20
-4.2980659318
 30
0.0
 11
785.3163772869
 21
-149.8167413783
 31
0.0
  0
LINE
  5
B5
330
1F
100
AcDbEntity
  8
0
  6
Continuous
 62
     7
370
    25
100
AcDbLine
 10
945.3163737106
 20
-149.8167413783
 30
0.0
 11
945.3163737106
 21
-4.3167370868
 31
0.0
  0
SPLINE
  5
B6
330
1F
100
AcDbEntity
  8
0
  6
Continuous
 62
     7
370
    25
100
AcDbSpline
210
0.0
220
0.0
230
1.0
 70
     8
 71
     3
 72
    46
 73
    42
 74
     0
 42
0.000000001
 43
0.00000001
 40
0.0
 40
0.0
 40
0.0
 40
0.0
 40
0.0241709293784646
 40
0.048524763344638
 40
0.0734460677977205
 40
0.098557726607305
 40
0.122725971296892
 40
0.1470519639048398
 40
0.171850310909484
 40
0.1968018577777119
 40
0.2224924951109544
 40
0.2483394499708724
 40
0.2746668863000473
 40
0.3011581916032574
 40
0.3288055429613054
 40
0.3566550933346923
 40
0.3851823091249575
 40
0.4139663878758596
 40
0.4398338470270904
 40
0.4659239958102103
 40
0.4927545085682754
 40
0.5198542933625587
 40
0.5426188949251991
 40
0.565542714481757
 40
0.5889471436097533
 40
0.6125075706900617
 40
0.635879694237875
 40
0.6593873333205733
 40
0.6832957626108697
 40
0.7073335745165319
 40
0.7337407692371508
 40
0.7603133563201695
 40
0.7874073138642391
 40
0.8146851416223945
 40
0.8422651423201187
 40
0.8700588975810106
 40
0.8985683930052147
 40
0.9273450200746117
 40
0.952573303663511
 40
0.978004115002708
 40
1.0
 40
1.0
 40
1.0
 40
1.0
 10
945.3163737106091
 20
-4.316737086755936
 30
0.0
 10
945.2702631782846
 20
-4.293292635761683
 30
0.0
 10
945.1776931891994
 20
-4.246226326542549
 30
0.0
 10
944.4237564780611
 20
-3.864471487869461
 30
0.0
 10
943.2067712294316
 20
-3.254058086262626
 30
0.0
 10
941.5027013510505
 20
-2.411293623896707
 30
0.0
 10
939.3639075238232
 20
-1.373882140891666
 30
0.0
 10
936.811464999471
 20
-0.165383354243584
 30
0.0
 10
933.8214403879294
 20
1.208054532451583
 30
0.0
 10
930.3759931023496
 20
2.732671964020342
 30
0.0
 10
926.4926798661298
 20
4.374304025403244
 30
0.0
 10
922.1592008525375
 20
6.106644674320219
 30
0.0
 10
917.4150225350755
 20
7.87877607200839
 30
0.0
 10
912.2064268119941
 20
9.66960089614656
 30
0.0
 10
906.5516547488268
 20
11.42308379814901
 30
0.0
 10
900.4198103922125
 20
13.09045233398536
 30
0.0
 10
893.8918344981448
 20
14.58913867132726
 30
0.0
 10
887.2460473783472
 20
15.8053524137995
 30
0.0
 10
880.5948501584388
 20
16.70693419837109
 30
0.0
 10
873.9666533498508
 20
17.29344408661591
 30
0.0
 10
867.150833230069
 20
17.55995379967838
 30
0.0
 10
860.6000798960216
 20
17.48159251915864
 30
0.0
 10
854.4267348709941
 20
17.1179558335167
 30
0.0
 10
848.6437184369216
 20
16.53294313368626
 30
0.0
 10
842.9113712726139
 20
15.71446790353261
 30
0.0
 10
837.2965003545594
 20
14.68567404515823
 30
0.0
 10
831.8573620838613
 20
13.48059522891319
 30
0.0
 10
826.6005248222716
 20
12.1267738878489
 30
0.0
 10
821.5290808169771
 20
10.6486953756388
 30
0.0
 10
816.5189646082093
 20
9.029991189094408
 30
0.0
 10
811.6398606628044
 20
7.304452027684386
 30
0.0
 10
806.9298038329599
 20
5.503055783525959
 30
0.0
 10
802.5638455142482
 20
3.719817569953307
 30
0.0
 10
798.5757585829128
 20
1.998784805559858
 30
0.0
 10
795.0224361845328
 20
0.393867449243121
 30
0.0
 10
791.9274742400942
 20
-1.05715250940229
 30
0.0
 10
789.3501330882643
 20
-2.302381829327529
 30
0.0
 10
787.4308435647519
 20
-3.25142269674146
 30
0.0
 10
786.154745659438
 20
-3.891801798700925
 30
0.0
 10
785.4265138670631
 20
-4.260750318899706
 30
0.0
 10
785.3764223840301
 20
-4.286232654673635
 30
0.0
 10
785.3531906056172
 20
-4.29805103061888
 30
0.0
  0
LINE
  5
B7
330
1F
100
AcDbEntity
  8
0
  6
Continuous
 62
     7
370
    25
100
AcDbLine
 10
1221.3163816976
 20
310.6832605291
 30
0.0
 11
1221.3163816976
 21
-4.3167370868
 31
0.0
  0
LINE
  5
B8
330
1F
100
AcDbEntity
  8
0
  6
Continuous
 62
     7
370
    25
100
AcDbLine
 10
509.3163692999
 20
310.6832605291
 30
0.0
 11
509.3163692999
 21
-4.3167370868
 31
0.0
  0
LINE
  5
B9
330
1F
100
AcDbEntity
  8
0
  6
Continuous
 62
     7
370
    25
100
AcDbLine
 10
945.3163737106
 20
-149.8167413783
 30
0.0
 11
785.3163772869
 21
-149.8167413783
 31
0.0
  0
LINE
  5
BA
330
1F
100
AcDbEntity
  8
0
  6
Continuous
 62
     7
370
    25
100
AcDbLine
 10
-17.2611712426
 20
-314.6541326914
 30
0.0
 11
-17.2611712426
 21
-1026.6541450892
 31
0.0
  0
LINE
  5
BB
330
1F
100
AcDbEntity
  8
0
  6
Continuous
 62
     7
370
    25
100
AcDbLine
 10
297.7388263732
 20
-1026.6541450892
 30
0.0
 11
297.7388263732
 21
-314.6541326914
 31
0.0
  0
LINE
  5
BC
330
1F
100
AcDbEntity
  8
0
  6
Continuous
 62
     7
370
    25
100
AcDbLine
 10
297.7388263732
 20
-1026.6541450892
 30
0.0
 11
-17.2611712426
 21
-1026.6541450892
 31
0.0
  0
LINE
  5
BD
330
1F
100
AcDbEntity
  8
0
  6
Continuous
 62
     7
370
    25
100
AcDbLine
 10
297.7388263732
 20
-314.6541326914
 30
0.0
 11
-17.2611712426
 21
-314.6541326914
 31
0.0
  0
LINE
  5
BE
330
1F
100
AcDbEntity
  8
0
  6
Continuous
 62
     7
370
    25
100
AcDbLine
 10
1155.3916089174
 20
-570.1874466847
 30
0.0
 11
651.9315719461
 21
-279.546153815
 31
0.0
  0
LINE
  5
BF
330
1F
100
AcDbEntity
  8
0
  6
Continuous
 62
     7
370
    25
100
AcDbLine
 10
494.4443723214
 20
-552.3515511034
 30
0.0
 11
744.9179910304
 21
-696.9468933857
 31
0.0
  0
LINE
  5
C0
330
1F
100
AcDbEntity
  8
0
  6
Continuous
 62
     7
370
    25
100
AcDbLine
 10
904.9179879859
 20
-789.3129255618
 30
0.0
 11
997.9044092927
 21
-842.9928439731
 31
0.0
  0
LINE
  5
C1
330
1F
100
AcDbEntity
  8
0
  6
Continuous
 62
     7
370
    25
100
AcDbLine
 10
744.917993253
 20
-681.2931988365
 30
0.0
 11
744.917993253
 21
-808.6813674262
 31
0.0
  0
LINE
  5
C2
330
1F
100
AcDbEntity
  8
0
  6
Continuous
 62
     7
370
    25
100
AcDbLine
 10
904.9179879859
 20
-808.6813674262
 30
0.0
 11
904.9179879859
 21
-681.2932961757
 31
0.0
  0
SPLINE
  5
C3
330
1F
100
AcDbEntity
  8
0
  6
Continuous
 62
     7
370
    25
100
AcDbSpline
210
0.0
220
0.0
230
1.0
 70
     8
 71
     3
 72
    18
 73
    14
 74
     0
 42
0.000000001
 43
0.00000001
 40
0.0
 40
0.0
 40
0.0
 40
0.0
 40
0.0967905144141711
 40
0.1954474282957399
 40
0.2941078927745321
 40
0.3946654814346678
 40
0.4914452452312918
 40
0.589799497352558
 40
0.6881591677433382
 40
0.788075601199009
 40
0.8909516621140655
 40
0.9954149439112792
 40
1.0
 40
1.0
 40
1.0
 40
1.0
 10
768.3494493888859
 20
-657.2183520496654
 30
0.0
 10
766.9238717774236
 20
-658.059819688681
 30
0.0
 10
764.0452273184835
 20
-659.7589808826795
 30
0.0
 10
760.1842447139827
 20
-662.2931620615507
 30
0.0
 10
756.6602527214937
 20
-664.8235946533767
 30
0.0
 10
753.6025813610578
 20
-667.2891737432121
 30
0.0
 10
750.993083020399
 20
-669.6975879075901
 30
0.0
 10
748.851422040893
 20
-672.0316530090703
 30
0.0
 10
747.1512238577881
 20
-674.3353765387191
 30
0.0
 10
745.8862393019905
 20
-676.6222497736857
 30
0.0
 10
745.1491143468445
 20
-678.9086123275575
 30
0.0
 10
744.8399047492114
 20
-680.4659047397784
 30
0.0
 10
744.925510113505
 20
-681.2595931583262
 30
0.0
 10
744.9291094842463
 20
-681.2929646519827
 30
0.0
  0
SPLINE
  5
C4
330
1F
100
AcDbEntity
  8
0
  6
Continuous
 62
     7
370
    25
100
AcDbSpline
210
0.0
220
0.0
230
1.0
 70
     8
 71
     3
 72
    36
 73
    32
 74
     0
 42
0.000000001
 43
0.00000001
 40
0.0
 40
0.0
 40
0.0
 40
0.0
 40
0.0346127052617649
 40
0.070340780746019
 40
0.1066570374804486
 40
0.1434757601677441
 40
0.1805817356214575
 40
0.2186649351183614
 40
0.2571222944643045
 40
0.2903216330054923
 40
0.3242532441765781
 40
0.3581844819807545
 40
0.392887192670446
 40
0.4228979813467524
 40
0.4533943693388066
 40
0.4838927932314185
 40
0.5148678711918115
 40
0.5469541302931286
 40
0.579501457884786
 40
0.6120500582799691
 40
0.645056194965092
 40
0.681126504370202
 40
0.7178197022966486
 40
0.7545113014347986
 40
0.7918650128164573
 40
0.8281297452503188
 40
0.8646857963258531
 40
0.9022170577813834
 40
0.9401103362689349
 40
0.9700553664310549
 40
1.0
 40
1.0
 40
1.0
 40
1.0
 10
904.9097008617688
 20
-681.2934816985288
 30
0.0
 10
904.8634665684685
 20
-679.5831325163892
 30
0.0
 10
904.7695081140978
 20
-676.1073193457582
 30
0.0
 10
903.937389100832
 20
-670.8738807985253
 30
0.0
 10
902.571568828226
 20
-665.6345134161757
 30
0.0
 10
900.6032778566915
 20
-660.4974782685773
 30
0.0
 10
898.0201758329957
 20
-655.5221102624203
 30
0.0
 10
894.800188161293
 20
-650.8013491771416
 30
0.0
 10
891.117155433519
 20
-646.6415039454719
 30
0.0
 10
887.0814928102261
 20
-643.0635947063005
 30
0.0
 10
882.8016835111574
 20
-640.0653814023591
 30
0.0
 10
878.0708584227795
 20
-637.4883925791898
 30
0.0
 10
873.1815802590932
 20
-635.4896256095442
 30
0.0
 10
868.1991617281919
 20
-633.9990017028812
 30
0.0
 10
863.2327005782844
 20
-632.962171596868
 30
0.0
 10
858.040240760578
 20
-632.2935894276674
 30
0.0
 10
852.61085939117
 20
-631.9860762509725
 30
0.0
 10
846.9393320861382
 20
-632.0364284083375
 30
0.0
 10
841.0756543384681
 20
-632.4398242091429
 30
0.0
 10
835.0841213507897
 20
-633.1738374863407
 30
0.0
 10
828.8285716147998
 20
-634.2451230393131
 30
0.0
 10
822.292764286023
 20
-635.6671723866378
 30
0.0
 10
815.5367346470049
 20
-637.4357162682037
 30
0.0
 10
808.7469338462325
 20
-639.489448596032
 30
0.0
 10
802.0701838690727
 20
-641.7646655324678
 30
0.0
 10
795.5342473551057
 20
-644.227699766761
 30
0.0
 10
789.16846392738
 20
-646.8484750772263
 30
0.0
 10
782.9480065363891
 20
-649.629920824439
 30
0.0
 10
777.3898512026385
 20
-652.328399750195
 30
0.0
 10
772.5003349087267
 20
-654.870197434194
 30
0.0
 10
769.7330717871686
 20
-656.4356372999891
 30
0.0
 10
768.3494493888859
 20
-657.2183520496654
 30
0.0
  0
LWPOLYLINE
  5
C5
330
1F
100
AcDbEntity
  8
0
  6
Continuous
 62
     7
370
    25
100
AcDbPolyline
 90
      134
 70
   128
 43
0.0
 10
573.1879721337
 20
-544.5540293578
 10
578.4473239185
 20
-541.3743921443
 10
583.6949404402
 20
-537.9148654625
 10
588.9191108018
 20
-534.1831954293
 10
594.108180741
 20
-530.1877038372
 10
599.2505690943
 20
-525.9372908177
 10
604.3347987479
 20
-521.4414534754
 10
609.3495308825
 20
-516.7102296168
 10
614.2835702415
 20
-511.7541582073
 10
619.1259085947
 20
-506.5843029489
 10
623.8657431783
 20
-501.2122173012
 10
628.4924977673
 20
-495.6498593111
 10
632.9958463838
 20
-489.9096752664
 10
637.3657370045
 20
-484.0044400004
 10
641.5924231707
 20
-477.9473603181
 10
645.6664745251
 20
-471.7519289881
 10
649.5787926166
 20
-465.4319825395
 10
653.320658316
 20
-459.0016191361
 10
656.8837107423
 20
-452.4751864073
 10
660.2600104828
 20
-445.8672510351
 10
663.4420132516
 20
-439.1925592081
 10
666.4226278416
 20
-432.4659970825
 10
669.1952055874
 20
-425.70257253
 10
671.7535403654
 20
-418.9173968868
 10
674.0919528879
 20
-412.1255876223
 10
676.2051958722
 20
-405.3423139579
 10
678.0885699448
 20
-398.5827086642
 10
679.7378709574
 20
-391.8618498048
 10
681.1494215976
 20
-385.1947394468
 10
682.3200608517
 20
-378.5962549893
 10
683.2471861518
 20
-372.0811202708
 10
683.9287323024
 20
-365.6638660224
 10
684.3631609434
 20
-359.3588253043
 10
684.5495237708
 20
-353.1800530928
 10
684.4873887794
 20
-347.1413462355
 10
684.1769034831
 20
-341.2561750155
 10
683.618763305
 20
-335.53766908
 10
682.8142010404
 20
-329.9985963365
 10
681.7650290037
 20
-324.6513076327
 10
680.4735758083
 20
-319.5077409336
 10
678.9427179767
 20
-314.5793779779
 10
677.175890477
 20
-309.8772001721
 10
675.1770235028
 20
-305.4117144402
 10
672.9505740834
 20
-301.1928832643
 10
670.5015260835
 20
-297.2301064335
 10
667.8353164467
 20
-293.532254497
 10
664.9579300255
 20
-290.1075470993
 10
661.8757520673
 20
-286.9636503056
 10
658.595689387
 20
-284.1075640644
 10
655.1250439261
 20
-281.5456708653
 10
651.4715654363
 20
-279.2836809911
 10
647.6434040646
 20
-277.3266477219
 10
643.6491050844
 20
-275.6789338746
 10
639.4975772858
 20
-274.3442118001
 10
635.1980877071
 20
-273.325472508
 10
630.7602300248
 20
-272.6249830779
 10
626.1939087482
 20
-272.2443018672
 10
621.5093076097
 20
-272.1842785081
 10
616.7168842959
 20
-272.4450569487
 10
611.8273309356
 20
-273.0260374269
 10
606.8515556599
 20
-273.9259479511
 10
601.8006667976
 20
-275.1427560859
 10
596.6859280941
 20
-276.6737556405
 10
591.518760028
 20
-278.515541573
 10
586.3106871284
 20
-280.6639917352
 10
581.0733320473
 20
-283.1143189629
 10
575.8183818093
 20
-285.8610418907
 10
570.5575624581
 20
-288.8980482577
 10
565.3026122202
 20
-292.2185617299
 10
560.065257139
 20
-295.8151559665
 10
554.8571842394
 20
-299.6798187815
 10
549.6900161734
 20
-303.8039181106
 10
544.5752774698
 20
-308.1782701642
 10
539.5243886075
 20
-312.7930941799
 10
534.5486133319
 20
-317.6380915052
 10
529.6590599715
 20
-322.7024691721
 10
524.8666366578
 20
-327.9749049117
 10
520.1820355192
 20
-333.4436536175
 10
515.6157142426
 20
-339.096497153
 10
511.1778565603
 20
-344.9208279991
 10
506.8783669817
 20
-350.9036522952
 10
502.7268391831
 20
-357.0316263387
 10
498.7325402028
 20
-363.2910596253
 10
494.9043788311
 20
-369.6679939341
 10
491.2509003414
 20
-376.1482002854
 10
487.7802548804
 20
-382.7172154395
 10
484.5001922002
 20
-389.3603814412
 10
481.418014242
 20
-396.0628851583
 10
478.5406278207
 20
-402.8097522038
 10
475.8744181839
 20
-409.5859442627
 10
473.4253701841
 20
-416.3763317268
 10
471.1989207646
 20
-423.1657666855
 10
469.2000537904
 20
-429.9390951019
 10
467.4332262907
 20
-436.6812085177
 10
465.9023684591
 20
-443.3770623036
 10
464.6109152638
 20
-450.0117091235
 10
463.5617432271
 20
-456.5703460766
 10
462.7571809624
 20
-463.0383466382
 10
462.1990407843
 20
-469.4012675066
 10
461.888555488
 20
-475.6449174192
 10
461.8264204966
 20
-481.7553638106
 10
462.012783324
 20
-487.7189660816
 10
462.447211965
 20
-493.5224261672
 10
463.1287581156
 20
-499.1527839797
 10
464.0558834157
 20
-504.5974826116
 10
465.2265226698
 20
-509.8443757557
 10
466.63807331
 20
-514.8817444346
 10
468.2873743227
 20
-519.6983608777
 10
470.1707483952
 20
-524.2834687527
 10
472.2839913795
 20
-528.6268440021
 10
474.6224039021
 20
-532.7187796365
 10
477.1807386801
 20
-536.5501648182
 10
479.9533164258
 20
-540.1124392439
 10
482.9339310158
 20
-543.397657015
 10
486.1159337847
 20
-546.3984866454
 10
489.4922335252
 20
-549.1082293125
 10
493.0552859514
 20
-551.520849275
 10
496.7971516509
 20
-553.6309465013
 10
500.7094697424
 20
-555.4338266299
 10
504.7835210967
 20
-556.9254583893
 10
509.0102072629
 20
-558.1025100985
 10
513.3800978836
 20
-558.9623770474
 10
517.8834465002
 20
-559.503105453
 10
522.5102010892
 20
-559.723526301
 10
527.2500356727
 20
-559.6231154239
 10
532.092374026
 20
-559.2021258241
 10
537.0264133849
 20
-558.4614766479
 10
542.0411455195
 20
-557.402814025
 10
547.1253751731
 20
-556.0285247585
 10
552.2677635264
 20
-554.3416625638
 10
557.4568334657
 20
-552.3459815296
 10
562.6810038272
 20
-550.0459528517
 10
567.9286203489
 20
-547.4467104621
 10
573.1879721337
 20
-544.5540293578
  0
LWPOLYLINE
  5
C6
330
1F
100
AcDbEntity
  8
0
  6
Continuous
 62
     7
370
    25
100
AcDbPolyline
 90
       51
 70
   128
 43
0.0
 10
1076.6480091051
 20
-835.1953222275
 10
1081.9073608899
 20
-832.015685014
 10
1087.1549774116
 20
-828.5561583322
 10
1092.3791477731
 20
-824.824488299
 10
1097.5682177124
 20
-820.8289967069
 10
1102.7106060657
 20
-816.5785836874
 10
1107.7948357193
 20
-812.0827463451
 10
1112.8095678539
 20
-807.3515224865
 10
1117.7436072128
 20
-802.395451077
 10
1122.5859455661
 20
-797.2255958186
 10
1127.3257801496
 20
-791.8535101709
 10
1131.9525347386
 20
-786.2911521808
 10
1136.4558833552
 20
-780.5509681361
 10
1140.8257739759
 20
-774.6457328701
 10
1145.0524601421
 20
-768.5886531878
 10
1149.1265114964
 20
-762.3932218578
 10
1153.0388295879
 20
-756.0732754092
 10
1156.7806952874
 20
-749.6429120058
 10
1160.3437477136
 20
-743.116479277
 10
1163.7200474541
 20
-736.5085439048
 10
1166.902050223
 20
-729.8338520778
 10
1169.882664813
 20
-723.1072899522
 10
1172.6552425587
 20
-716.3438653997
 10
1175.2135773368
 20
-709.5586897565
 10
1177.5519898593
 20
-702.766880492
 10
1179.6652328436
 20
-695.9836068276
 10
1181.5486069162
 20
-689.2240015339
 10
1183.1979079288
 20
-682.5031426745
 10
1184.609458569
 20
-675.8360323165
 10
1185.7800978231
 20
-669.237547859
 10
1186.7072231232
 20
-662.7224131405
 10
1187.3887692738
 20
-656.3051588921
 10
1187.8231979148
 20
-650.000118174
 10
1188.0095607422
 20
-643.8213459625
 10
1187.9474257508
 20
-637.7826391052
 10
1187.6369404545
 20
-631.8974678852
 10
1187.0788002764
 20
-626.1789619497
 10
1186.2742380117
 20
-620.6398892062
 10
1185.225065975
 20
-615.2926005024
 10
1183.9336127797
 20
-610.1490338033
 10
1182.4027549481
 20
-605.2206708476
 10
1180.6359274484
 20
-600.5184930418
 10
1178.6370604742
 20
-596.0530073099
 10
1176.4106110547
 20
-591.834176134
 10
1173.9615630549
 20
-587.8713993032
 10
1171.2953534181
 20
-584.1735473667
 10
1168.4179669968
 20
-580.748839969
 10
1165.3357890387
 20
-577.6049431753
 10
1162.0557263584
 20
-574.7488569341
 10
1158.5850808975
 20
-572.186963735
 10
1155.3916089174
 20
-570.1874466847
  0
LWPOLYLINE
  5
C7
330
1F
100
AcDbEntity
  8
0
  6
Continuous
 62
     7
370
    25
100
AcDbPolyline
 90
       18
 70
   128
 43
0.0
 10
997.9044092927
 20
-842.9928439731
 10
1000.2571886222
 20
-844.272239371
 10
1004.1695067138
 20
-846.0751194996
 10
1008.2435580681
 20
-847.566751259
 10
1012.4702442343
 20
-848.7438029682
 10
1016.840134855
 20
-849.6036699171
 10
1021.3434834715
 20
-850.1443983227
 10
1025.9702380605
 20
-850.3648191707
 10
1030.7100726441
 20
-850.2644082936
 10
1035.5524109974
 20
-849.8434186938
 10
1040.4864503563
 20
-849.1027695176
 10
1045.5011824909
 20
-848.0441068947
 10
1050.5854121445
 20
-846.6698176282
 10
1055.7278004978
 20
-844.9829554335
 10
1060.9168704371
 20
-842.9872743993
 10
1066.1410407986
 20
-840.6872457214
 10
1071.3886573203
 20
-838.0880033318
 10
1076.6480091051
 20
-835.1953222275
  0
LWPOLYLINE
  5
C8
330
1F
100
AcDbEntity
  8
0
  6
Continuous
 62
     7
370
    25
100
AcDbPolyline
 90
      126
 70
   128
 43
0.0
 10
573.1879721337
 20
-529.2847132164
 10
578.1192722768
 20
-526.2947847046
 10
583.0381153919
 20
-523.0261256022
 10
587.9320763907
 20
-519.4869673246
 10
592.7887920876
 20
-515.6862599301
 10
597.5959944573
 20
-511.6336164198
 10
602.3415399388
 20
-507.3392593174
 10
607.013441705
 20
-502.814038543
 10
611.5998960043
 20
-498.0693918718
 10
616.0893203558
 20
-493.1173046332
 10
620.4703719888
 20
-487.9702808146
 10
624.7319820874
 20
-482.6413232929
 10
628.8633900342
 20
-477.1438958142
 10
632.8541539475
 20
-471.491886493
 10
636.6942007305
 20
-465.6995667516
 10
640.373820803
 20
-459.7815761107
 10
643.8837260533
 20
-453.7528583153
 10
647.2150445698
 20
-447.6286461257
 10
650.3593680561
 20
-441.4244096098
 10
653.3087465629
 20
-435.1558165993
 10
656.0557359033
 20
-428.8387053166
 10
658.5933923837
 20
-422.4890326634
 10
660.9153096834
 20
-416.1228377221
 10
663.0156135853
 20
-409.7562082943
 10
664.8890093914
 20
-403.4052200687
 10
666.5307661182
 20
-397.0859122847
 10
667.9367217642
 20
-390.8142603561
 10
669.1033359943
 20
-384.606101351
 10
670.0276690657
 20
-378.4771096547
 10
670.7073712917
 20
-372.4427771965
 10
671.140725188
 20
-366.5183495756
 10
671.3266454735
 20
-360.7187852801
 10
671.2646579961
 20
-355.0587375302
 10
670.9549208064
 20
-349.5525031379
 10
670.3982136211
 20
-344.213993039
 10
669.5959483597
 20
-339.0566896125
 10
668.5501480709
 20
-334.0936205381
 10
667.2634574694
 20
-329.3373276179
 10
665.7391218626
 20
-324.7998188655
 10
663.9809871504
 20
-320.4925685059
 10
661.993510362
 20
-316.426442451
 10
659.7816964357
 20
-312.6117195869
 10
657.351145634
 20
-309.0580400668
 10
654.707985055
 20
-305.774371844
 10
651.8589055109
 20
-302.7690137174
 10
648.8110877709
 20
-300.0495557803
 10
645.5722447085
 20
-297.6228733411
 10
642.1505528121
 20
-295.4950934561
 10
638.5546521858
 20
-293.6715888458
 10
634.7936307437
 20
-292.1569626844
 10
630.8769926003
 20
-290.9550485967
 10
626.8146211913
 20
-290.0688832779
 10
622.6167845429
 20
-289.5006973687
 10
618.2940931242
 20
-289.2519337024
 10
613.8574524321
 20
-289.3232199237
 10
609.3180787968
 20
-289.7143593647
 10
604.6874387952
 20
-290.4243964389
 10
599.9772281778
 20
-291.4515071331
 10
595.1993442097
 20
-292.7931062291
 10
590.3658593288
 20
-294.4458138418
 10
585.4889803161
 20
-296.4054546544
 10
580.5810285393
 20
-298.6670693235
 10
575.6544010988
 20
-301.2249369095
 10
570.7215431687
 20
-304.072615178
 10
565.7949157282
 20
-307.2029105589
 10
560.8869639514
 20
-310.6078963942
 10
556.0100849386
 20
-314.2789802364
 10
551.1766000577
 20
-318.2068954803
 10
546.3987160896
 20
-322.3817237934
 10
541.6885054722
 20
-326.7929065208
 10
537.0578654706
 20
-331.4292925905
 10
532.5184918353
 20
-336.27920239
 10
528.0818511433
 20
-341.3303524777
 10
523.7591597245
 20
-346.5699894224
 10
519.5613230761
 20
-351.9848943605
 10
515.4989516672
 20
-357.5613738719
 10
511.5823135237
 20
-363.2853421054
 10
507.8212920816
 20
-369.1423511936
 10
504.2253914553
 20
-375.1175942948
 10
500.8036995589
 20
-381.1959755525
 10
497.5648564965
 20
-387.3621465943
 10
494.5170387566
 20
-393.6005399912
 10
491.6679592124
 20
-399.895375341
 10
489.0247986334
 20
-406.2307718105
 10
486.5942478317
 20
-412.5907055535
 10
484.3824339054
 20
-418.9591344197
 10
482.394957117
 20
-425.3199523305
 10
480.6368224048
 20
-431.6571018213
 10
479.112486798
 20
-437.9545710035
 10
477.8257961965
 20
-444.1964452706
 10
476.7799959077
 20
-450.3669696571
 10
475.9777306463
 20
-456.4505488381
 10
475.4210234611
 20
-462.4318193716
 10
475.1112862714
 20
-468.295668711
 10
475.0492987939
 20
-474.027285679
 10
475.2352190794
 20
-479.612190982
 10
475.6685729758
 20
-485.0362788442
 10
476.3482752017
 20
-490.2858438165
 10
477.2726082731
 20
-495.3476232649
 10
478.4392225032
 20
-500.2088381505
 10
479.8451781492
 20
-504.8572082426
 10
481.486934876
 20
-509.2809840574
 10
483.3603306822
 20
-513.4689955255
 10
485.460634584
 20
-517.4106656849
 10
487.7825518837
 20
-521.0960319751
 10
490.3202083642
 20
-524.5157888209
 10
493.0671977045
 20
-527.6612937208
 10
496.0165762114
 20
-530.5246067908
 10
499.1608996977
 20
-533.0984846836
 10
502.4922182141
 20
-535.3764383841
 10
506.0021234644
 20
-537.3527058363
 10
509.6817435369
 20
-539.0222975713
 10
513.52179032
 20
-540.3809936692
 10
517.5125542333
 20
-541.4253650524
 10
521.6439621801
 20
-542.1527704486
 10
525.9055722786
 20
-542.5613776832
 10
530.2866239117
 20
-542.6501469542
 10
534.7760482631
 20
-542.4188551679
 10
539.3625025624
 20
-541.8680944211
 10
544.0344043287
 20
-540.999252232
 10
548.7799498102
 20
-539.8145191472
 10
553.5871521798
 20
-538.3168849425
 10
558.4438678768
 20
-536.510147751
 10
563.3378288755
 20
-534.3988589327
 10
568.2566719907
 20
-531.988342659
 10
573.1879721337
 20
-529.2847132164
  0
LWPOLYLINE
  5
C9
330
1F
100
AcDbEntity
  8
0
  6
Continuous
 62
     7
370
    25
100
AcDbPolyline
 90
       90
 70
   128
 43
0.0
 10
874.7690196203
 20
-837.4597539033
 10
878.1612788577
 20
-835.3580686673
 10
881.2882855869
 20
-833.123482964
 10
884.1344622668
 20
-830.7671306317
 10
886.6856182512
 20
-828.3007438962
 10
888.9290554847
 20
-825.7366166836
 10
890.8535899061
 20
-823.0875192726
 10
892.4496410099
 20
-820.3666526743
 10
893.7092469928
 20
-817.5875699369
 10
894.6261411454
 20
-814.764116839
 10
895.1957531689
 20
-811.9103611784
 10
895.4152460534
 20
-809.0405167381
 10
895.2835239809
 20
-806.1688839798
 10
894.8012428618
 20
-803.3097679272
 10
893.9708103347
 20
-800.4774142974
 10
892.7963567908
 20
-797.6859319465
 10
891.2837380079
 20
-794.9492274805
 10
889.4404877351
 20
-792.2809353038
 10
887.2757913512
 20
-789.6943507095
 10
884.8004292299
 20
-787.202357647
 10
882.0267392025
 20
-784.8173705564
 10
878.9685339108
 20
-782.5512744914
 10
875.6410489466
 20
-780.4153586849
 10
872.0608672838
 20
-778.420260759
 10
868.2458214844
 20
-776.5759224352
 10
864.2149173077
 20
-774.8915332694
 10
859.9882436539
 20
-773.3754786636
 10
855.5868456297
 20
-772.0353213327
 10
851.0326573772
 20
-770.8777321136
 10
846.34837234
 20
-769.9084758989
 10
841.5573161646
 20
-769.1323869259
 10
836.6833676749
 20
-768.5533261976
 10
831.7508008215
 20
-768.1741845241
 10
826.7841951195
 20
-767.996846026
 10
821.8082934033
 20
-768.0221942177
 10
816.8478832881
 20
-768.250107445
 10
811.9276786322
 20
-768.6794451988
 10
807.0721904622
 20
-769.3080709257
 10
802.3056058007
 20
-770.1328520277
 10
797.6516783482
 20
-771.1496803917
 10
793.1335915056
 20
-772.3534906371
 10
788.773853007
 20
-773.7382844472
 10
784.5941816503
 20
-775.2971625032
 10
780.6153986373
 20
-777.0223567985
 10
776.8573343893
 20
-778.9052783502
 10
773.3387027657
 20
-780.9365411498
 10
770.0770335628
 20
-783.1060254614
 10
767.0885855859
 20
-785.4029280039
 10
764.3882370018
 20
-787.8158009187
 10
761.9894438505
 20
-790.3326243818
 10
759.9041573976
 20
-792.9408603982
 10
758.1427681584
 20
-795.6275155295
 10
756.71405058
 20
-798.3792062831
 10
755.6251208943
 20
-801.1822199399
 10
754.881405508
 20
-804.0225936287
 10
754.4866054413
 20
-806.8861774351
 10
754.4426963277
 20
-809.7587043524
 10
754.7498889014
 20
-812.6258647949
 10
755.406652705
 20
-815.4733750284
 10
756.409723992
 20
-818.2870456009
 10
757.7540951898
 20
-821.0528634588
 10
759.4330781205
 20
-823.7570436507
 10
761.4382987321
 20
-826.3861205674
 10
763.7597708557
 20
-828.9269935628
 10
766.3859390108
 20
-831.3670003261
 10
769.3037027715
 20
-833.6939917759
 10
772.4985366215
 20
-835.8963708369
 10
775.9545220585
 20
-837.9631657179
 10
779.6544376496
 20
-839.8840818999
 10
783.5798564963
 20
-841.6495462359
 10
787.7112229548
 20
-843.2507634058
 10
792.0279492774
 20
-844.6797595414
 10
796.5085306932
 20
-845.9294121642
 10
801.1306491288
 20
-846.993497897
 10
805.8712739658
 20
-847.8667141334
 10
810.7067871638
 20
-848.5447117327
 10
815.6130991648
 20
-849.0241102263
 10
820.5657700649
 20
-849.3025251902
 10
825.5401228845
 20
-849.378566724
 10
830.5113779106
 20
-849.2518561789
 10
835.4547633332
 20
-848.9230261571
 10
840.3456574902
 20
-848.3937144295
 10
845.1596916005
 20
-847.6665593735
 10
849.8728814733
 20
-846.7451786835
 10
854.4617499967
 20
-845.6341686105
 10
858.9034298713
 20
-844.3390598627
 10
863.1757999286
 20
-842.8663088613
 10
867.2575641562
 20
-841.2232460376
 10
871.1283995413
 20
-839.4180634772
 10
874.7690196203
 20
-837.4597539033
  0
LWPOLYLINE
  5
CA
330
1F
100
AcDbEntity
  8
0
  6
Continuous
 62
     7
370
    25
100
AcDbPolyline
 90
       95
 70
   128
 43
0.0
 10
881.4865318499
 20
-841.3376911692
 10
885.138569115
 20
-839.0835636052
 10
888.5216456078
 20
-836.693651987
 10
891.6206585978
 20
-834.1786335694
 10
894.421755272
 20
-831.5497353324
 10
896.9124311872
 20
-828.818701477
 10
899.0815661611
 20
-825.9977301265
 10
900.9194664182
 20
-823.0994185827
 10
902.4179264942
 20
-820.1367154239
 10
903.5702503085
 20
-817.1228475125
 10
904.3712959455
 20
-814.0712758958
 10
904.8174835572
 20
-810.9956364986
 10
904.9068217052
 20
-807.9096580076
 10
904.6389099943
 20
-804.8271268951
 10
904.0149443413
 20
-801.7618083436
 10
903.0377143408
 20
-798.7273960643
 10
901.7115795575
 20
-795.7374408241
 10
900.0424695261
 20
-792.8052926605
 10
898.037833702
 20
-789.9440537405
 10
895.7066243393
 20
-787.1665015661
 10
893.0592609292
 20
-784.4850380316
 10
890.1075584188
 20
-781.9116419027
 10
886.8647028447
 20
-779.457806088
 10
883.3451793872
 20
-777.1344900234
 10
879.5647061867
 20
-774.9520692989
 10
875.5401686537
 20
-772.9202916545
 10
871.2895397848
 20
-771.0482309795
 10
866.8318039365
 20
-769.3442493905
 10
862.1868695679
 20
-767.8159590244
 10
857.3754867577
 20
-766.470180505
 10
852.419138545
 20
-765.3129288766
 10
847.3399586107
 20
-764.3493721653
 10
842.1606430327
 20
-763.5838108503
 10
836.9043172599
 20
-763.0196679792
 10
831.5944544528
 20
-762.659460275
 10
826.2547753845
 20
-762.5047981363
 10
820.9091246347
 20
-762.5563719514
 10
815.5813836612
 20
-762.8139505769
 10
810.2953338235
 20
-763.27638438
 10
805.074595796
 20
-763.9416067583
 10
799.9424873225
 20
-764.8066493472
 10
794.9219204835
 20
-765.8676465817
 10
790.0353253051
 20
-767.119861548
 10
785.304523318
 20
-768.5576981486
 10
780.7506445814
 20
-770.174736839
 10
776.3940328521
 20
-771.9637589577
 10
772.2541359374
 20
-773.916767446
 10
768.3494493889
 20
-776.0250436833
 10
764.6974121238
 20
-778.2791712472
 10
761.314335631
 20
-780.6690828654
 10
758.215322641
 20
-783.1841012831
 10
755.4142259669
 20
-785.8129995201
 10
752.9235500516
 20
-788.5440333755
 10
750.7544150778
 20
-791.3650047259
 10
748.9165148206
 20
-794.2633162698
 10
747.4180547446
 20
-797.2260194286
 10
746.2657309303
 20
-800.2398873399
 10
745.4646852933
 20
-803.2914589567
 10
745.0184976816
 20
-806.3670983538
 10
744.9291595336
 20
-809.4530768448
 10
745.1970712445
 20
-812.5356079574
 10
745.8210368975
 20
-815.6009265088
 10
746.798266898
 20
-818.6353387882
 10
748.1244016813
 20
-821.6252940284
 10
749.7935117127
 20
-824.5574421919
 10
751.7981475368
 20
-827.4186811119
 10
754.1293568995
 20
-830.1962332864
 10
756.7767203096
 20
-832.8776968209
 10
759.72842282
 20
-835.4510929498
 10
762.9712783941
 20
-837.9049287644
 10
766.4908018516
 20
-840.2282448291
 10
770.2712750521
 20
-842.4106655536
 10
774.2958125851
 20
-844.442443198
 10
778.546441454
 20
-846.314503873
 10
783.0041773023
 20
-848.018485462
 10
787.649111671
 20
-849.5467758281
 10
792.4604944811
 20
-850.8925543474
 10
797.4168426938
 20
-852.0498059759
 10
802.4960226281
 20
-853.0133626872
 10
807.6753382061
 20
-853.7789240021
 10
812.9316639789
 20
-854.3430668733
 10
818.241526786
 20
-854.7032745775
 10
823.5812058543
 20
-854.8579367161
 10
828.9268566041
 20
-854.8063629011
 10
834.2545975776
 20
-854.5487842756
 10
839.5406474153
 20
-854.0863504725
 10
844.7613854428
 20
-853.4211280942
 10
849.8934939164
 20
-852.5560855053
 10
854.9140607553
 20
-851.4950882708
 10
859.8006559337
 20
-850.2428733045
 10
864.5314579208
 20
-848.8050367038
 10
869.0853366574
 20
-847.1879980135
 10
873.4419483867
 20
-845.3989758948
 10
877.5818453014
 20
-843.4459674064
 10
881.4865318499
 20
-841.3376911692
  0
ENDSEC
  0
SECTION
  2
OBJECTS
  0
DICTIONARY
  5
C
330
0
100
AcDbDictionary
281
     1
  3
ACAD_GROUP
350
D
  3
ACAD_LAYOUT
350
1A
  3
ACAD_MLINESTYLE
350
17
  3
ACAD_PLOTSETTINGS
350
19
  3
ACAD_PLOTSTYLENAME
350
E
  3
ACAD_SCALELIST
350
47
  0
DICTIONARY
  5
D
102
{ACAD_REACTORS
330
C
102
}
330
C
100
AcDbDictionary
281
     1
  0
DICTIONARY
  5
1A
102
{ACAD_REACTORS
330
C
102
}
330
C
100
AcDbDictionary
281
     1
  3
Layout1
350
1E
  3
Layout2
350
26
  3
Model
350
22
  0
DICTIONARY
  5
17
102
{ACAD_REACTORS
330
C
102
}
330
C
100
AcDbDictionary
281
     1
  3
Standard
350
18
  0
DICTIONARY
  5
19
102
{ACAD_REACTORS
330
C
102
}
330
C
100
AcDbDictionary
281
     1
  0
ACDBDICTIONARYWDFLT
  5
E
102
{ACAD_REACTORS
330
C
102
}
330
C
100
AcDbDictionary
281
     1
  3
Normal
350
F
100
AcDbDictionaryWithDefault
340
F
  0
DICTIONARY
  5
47
102
{ACAD_REACTORS
330
C
102
}
330
C
100
AcDbDictionary
281
     1
  3
A0
350
48
  3
A1
350
49
  3
A2
350
4A
  3
A3
350
4B
  3
A4
350
4C
  3
A5
350
4D
  3
A6
350
4E
  3
A7
350
4F
  3
A8
350
50
  3
A9
350
51
  3
B0
350
52
  3
B1
350
53
  3
B2
350
54
  3
B3
350
55
  3
B4
350
56
  3
B5
350
57
  3
B6
350
58
  3
B7
350
59
  3
B8
350
5A
  3
B9
350
5B
  3
C0
350
5C
  3
C1
350
5D
  3
C2
350
5E
  3
C3
350
5F
  3
C4
350
60
  3
C5
350
61
  3
C6
350
62
  3
C7
350
63
  3
C8
350
64
  3
C9
350
65
  3
D0
350
66
  3
D1
350
67
  3
D2
350
68
  0
LAYOUT
  5
1E
102
{ACAD_REACTORS
330
1A
102
}
330
1A
100
AcDbPlotSettings
  1

  2
none_device
  4

  6

 40
0.0
 41
0.0
 42
0.0
 43
0.0
 44
0.0
 45
0.0
 46
0.0
 47
0.0
 48
0.0
 49
0.0
140
0.0
141
0.0
142
1.0
143
1.0
 70
   688
 72
     1
 73
     0
 74
     5
  7

 75
    16
147
1.0
148
0.0
149
0.0
100
AcDbLayout
  1
Layout1
 70
     1
 71
     1
 10
0.0
 20
0.0
 11
420.0
 21
297.0
 12
0.0
 22
0.0
 32
0.0
 14
1.0000000000E+20
 24
1.0000000000E+20
 34
1.0000000000E+20
 15
-1.0000000000E+20
 25
-1.0000000000E+20
 35
-1.0000000000E+20
146
0.0
 13
0.0
 23
0.0
 33
0.0
 16
1.0
 26
0.0
 36
0.0
 17
0.0
 27
1.0
 37
0.0
 76
     0
330
1B
  0
LAYOUT
  5
26
102
{ACAD_REACTORS
330
1A
102
}
330
1A
100
AcDbPlotSettings
  1

  2
none_device
  4

  6

 40
0.0
 41
0.0
 42
0.0
 43
0.0
 44
0.0
 45
0.0
 46
0.0
 47
0.0
 48
0.0
 49
0.0
140
0.0
141
0.0
142
1.0
143
1.0
 70
   688
 72
     1
 73
     0
 74
     5
  7

 75
    16
147
1.0
148
0.0
149
0.0
100
AcDbLayout
  1
Layout2
 70
     1
 71
     2
 10
0.0
 20
0.0
 11
0.0
 21
0.0
 12
0.0
 22
0.0
 32
0.0
 14
0.0
 24
0.0
 34
0.0
 15
0.0
 25
0.0
 35
0.0
146
0.0
 13
0.0
 23
0.0
 33
0.0
 16
1.0
 26
0.0
 36
0.0
 17
0.0
 27
1.0
 37
0.0
 76
     0
330
23
  0
LAYOUT
  5
22
102
{ACAD_REACTORS
330
1A
102
}
330
1A
100
AcDbPlotSettings
  1

  2
none_device
  4
Letter_(8.50_x_11.00_Inches)
  6

 40
6.35
 41
6.35
 42
6.35000508
 43
6.35000508
 44
215.9
 45
279.4
 46
0.0
 47
0.0
 48
0.0
 49
0.0
140
0.0
141
0.0
142
1.0
143
1.0
 70
  1712
 72
     1
 73
     0
 74
     0
  7

 75
     0
147
1.0
148
0.0
149
0.0
100
AcDbLayout
  1
Model
 70
     1
 71
     0
 10
0.0
 20
0.0
 11
279.4
 21
215.9
 12
0.0
 22
0.0
 32
0.0
 14
0.0
 24
0.0
 34
0.0
 15
279.4
 25
215.9
 35
0.0
146
0.0
 13
0.0
 23
0.0
 33
0.0
 16
1.0
 26
0.0
 36
0.0
 17
0.0
 27
1.0
 37
0.0
 76
     0
330
1F
331
29
  0
MLINESTYLE
  5
18
102
{ACAD_REACTORS
330
17
102
}
330
17
100
AcDbMlineStyle
  2
Standard
 70
     0
  3

 62
   256
 51
90.0
 52
90.0
 71
     2
 49
0.5
 62
   256
  6
BYLAYER
 49
-0.5
 62
   256
  6
BYLAYER
  0
ACDBPLACEHOLDER
  5
F
102
{ACAD_REACTORS
330
E
102
}
330
E
  0
SCALE
  5
48
102
{ACAD_REACTORS
330
47
102
}
330
47
100
AcDbScale
 70
     0
300
1:1
140
1.0
141
1.0
290
     1
  0
SCALE
  5
49
102
{ACAD_REACTORS
330
47
102
}
330
47
100
AcDbScale
 70
     0
300
1:2
140
1.0
141
2.0
290
     0
  0
SCALE
  5
4A
102
{ACAD_REACTORS
330
47
102
}
330
47
100
AcDbScale
 70
     0
300
1:4
140
1.0
141
4.0
290
     0
  0
SCALE
  5
4B
102
{ACAD_REACTORS
330
47
102
}
330
47
100
AcDbScale
 70
     0
300
1:5
140
1.0
141
5.0
290
     0
  0
SCALE
  5
4C
102
{ACAD_REACTORS
330
47
102
}
330
47
100
AcDbScale
 70
     0
300
1:8
140
1.0
141
8.0
290
     0
  0
SCALE
  5
4D
102
{ACAD_REACTORS
330
47
102
}
330
47
100
AcDbScale
 70
     0
300
1:10
140
1.0
141
10.0
290
     0
  0
SCALE
  5
4E
102
{ACAD_REACTORS
330
47
102
}
330
47
100
AcDbScale
 70
     0
300
1:16
140
1.0
141
16.0
290
     0
  0
SCALE
  5
4F
102
{ACAD_REACTORS
330
47
102
}
330
47
100
AcDbScale
 70
     0
300
1:20
140
1.0
141
20.0
290
     0
  0
SCALE
  5
50
102
{ACAD_REACTORS
330
47
102
}
330
47
100
AcDbScale
 70
     0
300
1:30
140
1.0
141
30.0
290
     0
  0
SCALE
  5
51
102
{ACAD_REACTORS
330
47
102
}
330
47
100
AcDbScale
 70
     0
300
1:40
140
1.0
141
40.0
290
     0
  0
SCALE
  5
52
102
{ACAD_REACTORS
330
47
102
}
330
47
100
AcDbScale
 70
     0
300
1:50
140
1.0
141
50.0
290
     0
  0
SCALE
  5
53
102
{ACAD_REACTORS
330
47
102
}
330
47
100
AcDbScale
 70
     0
300
1:100
140
1.0
141
100.0
290
     0
  0
SCALE
  5
54
102
{ACAD_REACTORS
330
47
102
}
330
47
100
AcDbScale
 70
     0
300
2:1
140
2.0
141
1.0
290
     0
  0
SCALE
  5
55
102
{ACAD_REACTORS
330
47
102
}
330
47
100
AcDbScale
 70
     0
300
4:1
140
4.0
141
1.0
290
     0
  0
SCALE
  5
56
102
{ACAD_REACTORS
330
47
102
}
330
47
100
AcDbScale
 70
     0
300
8:1
140
8.0
141
1.0
290
     0
  0
SCALE
  5
57
102
{ACAD_REACTORS
330
47
102
}
330
47
100
AcDbScale
 70
     0
300
10:1
140
10.0
141
1.0
290
     0
  0
SCALE
  5
58
102
{ACAD_REACTORS
330
47
102
}
330
47
100
AcDbScale
 70
     0
300
100:1
140
100.0
141
1.0
290
     0
  0
SCALE
  5
59
102
{ACAD_REACTORS
330
47
102
}
330
47
100
AcDbScale
 70
     0
300
1/128" = 1'-0"
140
0.0078125
141
12.0
290
     0
  0
SCALE
  5
5A
102
{ACAD_REACTORS
330
47
102
}
330
47
100
AcDbScale
 70
     0
300
1/64" = 1'-0"
140
0.015625
141
12.0
290
     0
  0
SCALE
  5
5B
102
{ACAD_REACTORS
330
47
102
}
330
47
100
AcDbScale
 70
     0
300
1/32" = 1'-0"
140
0.03125
141
12.0
290
     0
  0
SCALE
  5
5C
102
{ACAD_REACTORS
330
47
102
}
330
47
100
AcDbScale
 70
     0
300
1/16" = 1'-0"
140
0.0625
141
12.0
290
     0
  0
SCALE
  5
5D
102
{ACAD_REACTORS
330
47
102
}
330
47
100
AcDbScale
 70
     0
300
3/32" = 1'-0"
140
0.09375
141
12.0
290
     0
  0
SCALE
  5
5E
102
{ACAD_REACTORS
330
47
102
}
330
47
100
AcDbScale
 70
     0
300
1/8" = 1'-0"
140
0.125
141
12.0
290
     0
  0
SCALE
  5
5F
102
{ACAD_REACTORS
330
47
102
}
330
47
100
AcDbScale
 70
     0
300
3/16" = 1'-0"
140
0.1875
141
12.0
290
     0
  0
SCALE
  5
60
102
{ACAD_REACTORS
330
47
102
}
330
47
100
AcDbScale
 70
     0
300
1/4" = 1'-0"
140
0.25
141
12.0
290
     0
  0
SCALE
  5
61
102
{ACAD_REACTORS
330
47
102
}
330
47
100
AcDbScale
 70
     0
300
3/8" = 1'-0"
140
0.375
141
12.0
290
     0
  0
SCALE
  5
62
102
{ACAD_REACTORS
330
47
102
}
330
47
100
AcDbScale
 70
     0
300
1/2" = 1'-0"
140
0.5
141
12.0
290
     0
  0
SCALE
  5
63
102
{ACAD_REACTORS
330
47
102
}
330
47
100
AcDbScale
 70
     0
300
3/4" = 1'-0"
140
0.75
141
12.0
290
     0
  0
SCALE
  5
64
102
{ACAD_REACTORS
330
47
102
}
330
47
100
AcDbScale
 70
     0
300
1" = 1'-0"
140
1.0
141
12.0
290
     0
  0
SCALE
  5
65
102
{ACAD_REACTORS
330
47
102
}
330
47
100
AcDbScale
 70
     0
300
1-1/2" = 1'-0"
140
1.5
141
12.0
290
     0
  0
SCALE
  5
66
102
{ACAD_REACTORS
330
47
102
}
330
47
100
AcDbScale
 70
     0
300
3" = 1'-0"
140
3.0
141
12.0
290
     0
  0
SCALE
  5
67
102
{ACAD_REACTORS
330
47
102
}
330
47
100
AcDbScale
 70
     0
300
6" = 1'-0"
140
6.0
141
12.0
290
     0
  0
SCALE
  5
68
102
{ACAD_REACTORS
330
47
102
}
330
47
100
AcDbScale
 70
     0
300
1'-0" = 1'-0"
140
12.0
141
12.0
290
     0
  0
ENDSEC
  0
EOF
